ISO-10303-21;
HEADER;
FILE_DESCRIPTION(('FreeCAD Model'),'2;1');
FILE_NAME('Open CASCADE Shape Model','2024-07-19T18:26:40',('Author'),(
    ''),'Open CASCADE STEP processor 7.7','FreeCAD','Unknown');
FILE_SCHEMA(('AUTOMOTIVE_DESIGN { 1 0 10303 214 1 1 1 1 }'));
ENDSEC;
DATA;
#1 = APPLICATION_PROTOCOL_DEFINITION('international standard',
  'automotive_design',2000,#2);
#2 = APPLICATION_CONTEXT(
  'core data for automotive mechanical design processes');
#3 = SHAPE_DEFINITION_REPRESENTATION(#4,#10);
#4 = PRODUCT_DEFINITION_SHAPE('','',#5);
#5 = PRODUCT_DEFINITION('design','',#6,#9);
#6 = PRODUCT_DEFINITION_FORMATION('','',#7);
#7 = PRODUCT('clipbody','clipbody','',(#8));
#8 = PRODUCT_CONTEXT('',#2,'mechanical');
#9 = PRODUCT_DEFINITION_CONTEXT('part definition',#2,'design');
#10 = ADVANCED_BREP_SHAPE_REPRESENTATION('',(#11,#15),#567);
#11 = AXIS2_PLACEMENT_3D('',#12,#13,#14);
#12 = CARTESIAN_POINT('',(0.,0.,0.));
#13 = DIRECTION('',(0.,0.,1.));
#14 = DIRECTION('',(1.,0.,-0.));
#15 = MANIFOLD_SOLID_BREP('',#16);
#16 = CLOSED_SHELL('',(#17,#156,#187,#211,#236,#260,#284,#308,#333,#357,
    #381,#405,#430,#454,#478,#502,#526,#543));
#17 = ADVANCED_FACE('',(#18),#151,.F.);
#18 = FACE_BOUND('',#19,.F.);
#19 = EDGE_LOOP('',(#20,#30,#38,#46,#54,#62,#70,#78,#86,#94,#102,#110,
    #119,#127,#136,#144));
#20 = ORIENTED_EDGE('',*,*,#21,.F.);
#21 = EDGE_CURVE('',#22,#24,#26,.T.);
#22 = VERTEX_POINT('',#23);
#23 = CARTESIAN_POINT('',(-3.397282455353E-15,-13.,2.3));
#24 = VERTEX_POINT('',#25);
#25 = CARTESIAN_POINT('',(3.774758283726E-16,4.,2.3));
#26 = LINE('',#27,#28);
#27 = CARTESIAN_POINT('',(-3.619327060278E-15,-14.,2.3));
#28 = VECTOR('',#29,1.);
#29 = DIRECTION('',(2.22044604925E-16,1.,-2.22044604925E-16));
#30 = ORIENTED_EDGE('',*,*,#31,.T.);
#31 = EDGE_CURVE('',#22,#32,#34,.T.);
#32 = VERTEX_POINT('',#33);
#33 = CARTESIAN_POINT('',(-3.306598177652E-15,-13.35981560033,
    1.531778720403));
#34 = LINE('',#35,#36);
#35 = CARTESIAN_POINT('',(-1.434656898377E-15,-12.66426019411,
    3.016818456582));
#36 = VECTOR('',#37,1.);
#37 = DIRECTION('',(2.010812452599E-16,-0.42415539625,-0.905589421224));
#38 = ORIENTED_EDGE('',*,*,#39,.F.);
#39 = EDGE_CURVE('',#40,#32,#42,.T.);
#40 = VERTEX_POINT('',#41);
#41 = CARTESIAN_POINT('',(-2.886579864025E-15,-12.5,0.5));
#42 = LINE('',#43,#44);
#43 = CARTESIAN_POINT('',(-2.886579864025E-15,-12.5,0.5));
#44 = VECTOR('',#45,1.);
#45 = DIRECTION('',(-3.127288826259E-16,-0.640184399664,0.768221279597)
  );
#46 = ORIENTED_EDGE('',*,*,#47,.F.);
#47 = EDGE_CURVE('',#48,#40,#50,.T.);
#48 = VERTEX_POINT('',#49);
#49 = CARTESIAN_POINT('',(-2.775557561563E-15,-12.,0.5));
#50 = LINE('',#51,#52);
#51 = CARTESIAN_POINT('',(-2.775557561563E-15,-12.,0.5));
#52 = VECTOR('',#53,1.);
#53 = DIRECTION('',(-2.22044604925E-16,-1.,2.22044604925E-16));
#54 = ORIENTED_EDGE('',*,*,#55,.F.);
#55 = EDGE_CURVE('',#56,#48,#58,.T.);
#56 = VERTEX_POINT('',#57);
#57 = CARTESIAN_POINT('',(-2.997602166488E-15,-12.,1.5));
#58 = LINE('',#59,#60);
#59 = CARTESIAN_POINT('',(-2.997602166488E-15,-12.,1.5));
#60 = VECTOR('',#61,1.);
#61 = DIRECTION('',(2.22044604925E-16,-2.22044604925E-16,-1.));
#62 = ORIENTED_EDGE('',*,*,#63,.T.);
#63 = EDGE_CURVE('',#56,#64,#66,.T.);
#64 = VERTEX_POINT('',#65);
#65 = CARTESIAN_POINT('',(4.440892098501E-16,3.5,1.5));
#66 = LINE('',#67,#68);
#67 = CARTESIAN_POINT('',(-2.997602166488E-15,-12.,1.5));
#68 = VECTOR('',#69,1.);
#69 = DIRECTION('',(2.22044604925E-16,1.,-2.22044604925E-16));
#70 = ORIENTED_EDGE('',*,*,#71,.T.);
#71 = EDGE_CURVE('',#64,#72,#74,.T.);
#72 = VERTEX_POINT('',#73);
#73 = CARTESIAN_POINT('',(7.771561172376E-16,3.5,-7.771561172376E-16));
#74 = LINE('',#75,#76);
#75 = CARTESIAN_POINT('',(4.440892098501E-16,3.5,1.5));
#76 = VECTOR('',#77,1.);
#77 = DIRECTION('',(2.22044604925E-16,-2.22044604925E-16,-1.));
#78 = ORIENTED_EDGE('',*,*,#79,.T.);
#79 = EDGE_CURVE('',#72,#80,#82,.T.);
#80 = VERTEX_POINT('',#81);
#81 = CARTESIAN_POINT('',(0.,0.,0.));
#82 = LINE('',#83,#84);
#83 = CARTESIAN_POINT('',(7.771561172376E-16,3.5,-7.771561172376E-16));
#84 = VECTOR('',#85,1.);
#85 = DIRECTION('',(-2.22044604925E-16,-1.,2.22044604925E-16));
#86 = ORIENTED_EDGE('',*,*,#87,.T.);
#87 = EDGE_CURVE('',#80,#88,#90,.T.);
#88 = VERTEX_POINT('',#89);
#89 = CARTESIAN_POINT('',(3.552713678801E-16,-3.552713678801E-16,-1.6));
#90 = LINE('',#91,#92);
#91 = CARTESIAN_POINT('',(0.,0.,0.));
#92 = VECTOR('',#93,1.);
#93 = DIRECTION('',(2.22044604925E-16,-2.22044604925E-16,-1.));
#94 = ORIENTED_EDGE('',*,*,#95,.T.);
#95 = EDGE_CURVE('',#88,#96,#98,.T.);
#96 = VERTEX_POINT('',#97);
#97 = CARTESIAN_POINT('',(-1.86517468137E-15,-10.,-1.6));
#98 = LINE('',#99,#100);
#99 = CARTESIAN_POINT('',(3.552713678801E-16,-3.552713678801E-16,-1.6));
#100 = VECTOR('',#101,1.);
#101 = DIRECTION('',(-2.22044604925E-16,-1.,2.22044604925E-16));
#102 = ORIENTED_EDGE('',*,*,#103,.T.);
#103 = EDGE_CURVE('',#96,#104,#106,.T.);
#104 = VERTEX_POINT('',#105);
#105 = CARTESIAN_POINT('',(-1.754152378908E-15,-10.,-2.1));
#106 = LINE('',#107,#108);
#107 = CARTESIAN_POINT('',(-1.86517468137E-15,-10.,-1.6));
#108 = VECTOR('',#109,1.);
#109 = DIRECTION('',(2.22044604925E-16,-2.22044604925E-16,-1.));
#110 = ORIENTED_EDGE('',*,*,#111,.T.);
#111 = EDGE_CURVE('',#104,#112,#114,.T.);
#112 = VERTEX_POINT('',#113);
#113 = CARTESIAN_POINT('',(-1.310063169058E-15,-9.,-3.1));
#114 = CIRCLE('',#115,1.);
#115 = AXIS2_PLACEMENT_3D('',#116,#117,#118);
#116 = CARTESIAN_POINT('',(-2.98494965712E-16,-9.,-2.1));
#117 = DIRECTION('',(1.,-2.22044604925E-16,2.775557561563E-16));
#118 = DIRECTION('',(-2.775557561563E-16,0.,1.));
#119 = ORIENTED_EDGE('',*,*,#120,.T.);
#120 = EDGE_CURVE('',#112,#121,#123,.T.);
#121 = VERTEX_POINT('',#122);
#122 = CARTESIAN_POINT('',(1.576516694968E-15,4.,-3.1));
#123 = LINE('',#124,#125);
#124 = CARTESIAN_POINT('',(-1.532107773983E-15,-10.,-3.1));
#125 = VECTOR('',#126,1.);
#126 = DIRECTION('',(2.22044604925E-16,1.,-2.22044604925E-16));
#127 = ORIENTED_EDGE('',*,*,#128,.T.);
#128 = EDGE_CURVE('',#121,#129,#131,.T.);
#129 = VERTEX_POINT('',#130);
#130 = CARTESIAN_POINT('',(1.576516694968E-15,5.,-2.1));
#131 = CIRCLE('',#132,1.);
#132 = AXIS2_PLACEMENT_3D('',#133,#134,#135);
#133 = CARTESIAN_POINT('',(-2.98494965712E-16,4.,-2.1));
#134 = DIRECTION('',(1.,-2.22044604925E-16,2.775557561563E-16));
#135 = DIRECTION('',(-2.775557561563E-16,0.,1.));
#136 = ORIENTED_EDGE('',*,*,#137,.T.);
#137 = EDGE_CURVE('',#129,#138,#140,.T.);
#138 = VERTEX_POINT('',#139);
#139 = CARTESIAN_POINT('',(8.215650382226E-16,5.,1.3));
#140 = LINE('',#141,#142);
#141 = CARTESIAN_POINT('',(1.798561299893E-15,5.,-3.1));
#142 = VECTOR('',#143,1.);
#143 = DIRECTION('',(-2.22044604925E-16,2.22044604925E-16,1.));
#144 = ORIENTED_EDGE('',*,*,#145,.T.);
#145 = EDGE_CURVE('',#138,#24,#146,.T.);
#146 = CIRCLE('',#147,1.);
#147 = AXIS2_PLACEMENT_3D('',#148,#149,#150);
#148 = CARTESIAN_POINT('',(-1.053446622457E-15,4.,1.3));
#149 = DIRECTION('',(1.,-2.22044604925E-16,2.775557561563E-16));
#150 = DIRECTION('',(-2.775557561563E-16,0.,1.));
#151 = PLANE('',#152);
#152 = AXIS2_PLACEMENT_3D('',#153,#154,#155);
#153 = CARTESIAN_POINT('',(-7.738628142252E-16,-3.444301816353,
    4.086646542781E-02));
#154 = DIRECTION('',(1.,0.,2.22044604925E-16));
#155 = DIRECTION('',(-2.22044604925E-16,0.,1.));
#156 = ADVANCED_FACE('',(#157),#182,.T.);
#157 = FACE_BOUND('',#158,.T.);
#158 = EDGE_LOOP('',(#159,#160,#168,#176));
#159 = ORIENTED_EDGE('',*,*,#21,.F.);
#160 = ORIENTED_EDGE('',*,*,#161,.T.);
#161 = EDGE_CURVE('',#22,#162,#164,.T.);
#162 = VERTEX_POINT('',#163);
#163 = CARTESIAN_POINT('',(12.,-13.,2.3));
#164 = LINE('',#165,#166);
#165 = CARTESIAN_POINT('',(-3.397282455353E-15,-13.,2.3));
#166 = VECTOR('',#167,1.);
#167 = DIRECTION('',(1.,-2.22044604925E-16,2.775557561563E-16));
#168 = ORIENTED_EDGE('',*,*,#169,.T.);
#169 = EDGE_CURVE('',#162,#170,#172,.T.);
#170 = VERTEX_POINT('',#171);
#171 = CARTESIAN_POINT('',(12.,4.,2.3));
#172 = LINE('',#173,#174);
#173 = CARTESIAN_POINT('',(12.,-14.,2.3));
#174 = VECTOR('',#175,1.);
#175 = DIRECTION('',(2.22044604925E-16,1.,-2.22044604925E-16));
#176 = ORIENTED_EDGE('',*,*,#177,.F.);
#177 = EDGE_CURVE('',#24,#170,#178,.T.);
#178 = LINE('',#179,#180);
#179 = CARTESIAN_POINT('',(3.774758283726E-16,4.,2.3));
#180 = VECTOR('',#181,1.);
#181 = DIRECTION('',(1.,-2.22044604925E-16,2.775557561563E-16));
#182 = PLANE('',#183);
#183 = AXIS2_PLACEMENT_3D('',#184,#185,#186);
#184 = CARTESIAN_POINT('',(-3.619327060278E-15,-14.,2.3));
#185 = DIRECTION('',(-2.775557561563E-16,2.22044604925E-16,1.));
#186 = DIRECTION('',(2.22044604925E-16,1.,-2.22044604925E-16));
#187 = ADVANCED_FACE('',(#188),#206,.T.);
#188 = FACE_BOUND('',#189,.F.);
#189 = EDGE_LOOP('',(#190,#191,#192,#200));
#190 = ORIENTED_EDGE('',*,*,#31,.F.);
#191 = ORIENTED_EDGE('',*,*,#161,.T.);
#192 = ORIENTED_EDGE('',*,*,#193,.T.);
#193 = EDGE_CURVE('',#162,#194,#196,.T.);
#194 = VERTEX_POINT('',#195);
#195 = CARTESIAN_POINT('',(12.,-13.35981560033,1.531778720403));
#196 = LINE('',#197,#198);
#197 = CARTESIAN_POINT('',(12.,-12.66426019411,3.016818456582));
#198 = VECTOR('',#199,1.);
#199 = DIRECTION('',(2.010812452599E-16,-0.42415539625,-0.905589421224)
  );
#200 = ORIENTED_EDGE('',*,*,#201,.F.);
#201 = EDGE_CURVE('',#32,#194,#202,.T.);
#202 = LINE('',#203,#204);
#203 = CARTESIAN_POINT('',(-3.263953330021E-15,-13.35981560033,
    1.531778720403));
#204 = VECTOR('',#205,1.);
#205 = DIRECTION('',(1.,-2.22044604925E-16,2.775557561563E-16));
#206 = PLANE('',#207);
#207 = AXIS2_PLACEMENT_3D('',#208,#209,#210);
#208 = CARTESIAN_POINT('',(-3.330617892687E-15,-13.17990780016,
    1.915889360201));
#209 = DIRECTION('',(-2.785526547833E-16,-0.905589421224,0.42415539625)
  );
#210 = DIRECTION('',(-1.,1.855897747597E-16,-2.604812270467E-16));
#211 = ADVANCED_FACE('',(#212),#231,.T.);
#212 = FACE_BOUND('',#213,.T.);
#213 = EDGE_LOOP('',(#214,#215,#216,#225));
#214 = ORIENTED_EDGE('',*,*,#145,.T.);
#215 = ORIENTED_EDGE('',*,*,#177,.T.);
#216 = ORIENTED_EDGE('',*,*,#217,.F.);
#217 = EDGE_CURVE('',#218,#170,#220,.T.);
#218 = VERTEX_POINT('',#219);
#219 = CARTESIAN_POINT('',(12.,5.,1.3));
#220 = CIRCLE('',#221,1.);
#221 = AXIS2_PLACEMENT_3D('',#222,#223,#224);
#222 = CARTESIAN_POINT('',(12.,4.,1.3));
#223 = DIRECTION('',(1.,-2.22044604925E-16,2.775557561563E-16));
#224 = DIRECTION('',(-2.775557561563E-16,0.,1.));
#225 = ORIENTED_EDGE('',*,*,#226,.F.);
#226 = EDGE_CURVE('',#138,#218,#227,.T.);
#227 = LINE('',#228,#229);
#228 = CARTESIAN_POINT('',(8.770761894539E-16,5.,1.3));
#229 = VECTOR('',#230,1.);
#230 = DIRECTION('',(1.,-2.22044604925E-16,2.775557561563E-16));
#231 = CYLINDRICAL_SURFACE('',#232,1.);
#232 = AXIS2_PLACEMENT_3D('',#233,#234,#235);
#233 = CARTESIAN_POINT('',(6.550315845288E-16,4.,1.3));
#234 = DIRECTION('',(1.,-2.22044604925E-16,2.775557561563E-16));
#235 = DIRECTION('',(2.22044604925E-16,1.,-2.22044604925E-16));
#236 = ADVANCED_FACE('',(#237),#255,.T.);
#237 = FACE_BOUND('',#238,.T.);
#238 = EDGE_LOOP('',(#239,#240,#248,#254));
#239 = ORIENTED_EDGE('',*,*,#39,.F.);
#240 = ORIENTED_EDGE('',*,*,#241,.T.);
#241 = EDGE_CURVE('',#40,#242,#244,.T.);
#242 = VERTEX_POINT('',#243);
#243 = CARTESIAN_POINT('',(12.,-12.5,0.5));
#244 = LINE('',#245,#246);
#245 = CARTESIAN_POINT('',(-2.886579864025E-15,-12.5,0.5));
#246 = VECTOR('',#247,1.);
#247 = DIRECTION('',(1.,-2.22044604925E-16,2.775557561563E-16));
#248 = ORIENTED_EDGE('',*,*,#249,.T.);
#249 = EDGE_CURVE('',#242,#194,#250,.T.);
#250 = LINE('',#251,#252);
#251 = CARTESIAN_POINT('',(12.,-12.5,0.5));
#252 = VECTOR('',#253,1.);
#253 = DIRECTION('',(-3.127288826259E-16,-0.640184399664,0.768221279597)
  );
#254 = ORIENTED_EDGE('',*,*,#201,.F.);
#255 = PLANE('',#256);
#256 = AXIS2_PLACEMENT_3D('',#257,#258,#259);
#257 = CARTESIAN_POINT('',(-2.886579864025E-15,-12.5,0.5));
#258 = DIRECTION('',(7.107474605133E-18,-0.768221279597,-0.640184399664)
  );
#259 = DIRECTION('',(-3.127288826259E-16,-0.640184399664,0.768221279597)
  );
#260 = ADVANCED_FACE('',(#261),#279,.F.);
#261 = FACE_BOUND('',#262,.F.);
#262 = EDGE_LOOP('',(#263,#264,#272,#278));
#263 = ORIENTED_EDGE('',*,*,#137,.F.);
#264 = ORIENTED_EDGE('',*,*,#265,.T.);
#265 = EDGE_CURVE('',#129,#266,#268,.T.);
#266 = VERTEX_POINT('',#267);
#267 = CARTESIAN_POINT('',(12.,5.,-2.1));
#268 = LINE('',#269,#270);
#269 = CARTESIAN_POINT('',(1.521005543736E-15,5.,-2.1));
#270 = VECTOR('',#271,1.);
#271 = DIRECTION('',(1.,-2.22044604925E-16,2.775557561563E-16));
#272 = ORIENTED_EDGE('',*,*,#273,.T.);
#273 = EDGE_CURVE('',#266,#218,#274,.T.);
#274 = LINE('',#275,#276);
#275 = CARTESIAN_POINT('',(12.,5.,-3.1));
#276 = VECTOR('',#277,1.);
#277 = DIRECTION('',(-2.22044604925E-16,2.22044604925E-16,1.));
#278 = ORIENTED_EDGE('',*,*,#226,.F.);
#279 = PLANE('',#280);
#280 = AXIS2_PLACEMENT_3D('',#281,#282,#283);
#281 = CARTESIAN_POINT('',(1.798561299893E-15,5.,-3.1));
#282 = DIRECTION('',(-2.22044604925E-16,-1.,2.22044604925E-16));
#283 = DIRECTION('',(-2.22044604925E-16,2.22044604925E-16,1.));
#284 = ADVANCED_FACE('',(#285),#303,.T.);
#285 = FACE_BOUND('',#286,.T.);
#286 = EDGE_LOOP('',(#287,#295,#301,#302));
#287 = ORIENTED_EDGE('',*,*,#288,.T.);
#288 = EDGE_CURVE('',#48,#289,#291,.T.);
#289 = VERTEX_POINT('',#290);
#290 = CARTESIAN_POINT('',(12.,-12.,0.5));
#291 = LINE('',#292,#293);
#292 = CARTESIAN_POINT('',(-2.775557561563E-15,-12.,0.5));
#293 = VECTOR('',#294,1.);
#294 = DIRECTION('',(1.,-2.22044604925E-16,2.775557561563E-16));
#295 = ORIENTED_EDGE('',*,*,#296,.T.);
#296 = EDGE_CURVE('',#289,#242,#297,.T.);
#297 = LINE('',#298,#299);
#298 = CARTESIAN_POINT('',(12.,-12.,0.5));
#299 = VECTOR('',#300,1.);
#300 = DIRECTION('',(-2.22044604925E-16,-1.,2.22044604925E-16));
#301 = ORIENTED_EDGE('',*,*,#241,.F.);
#302 = ORIENTED_EDGE('',*,*,#47,.F.);
#303 = PLANE('',#304);
#304 = AXIS2_PLACEMENT_3D('',#305,#306,#307);
#305 = CARTESIAN_POINT('',(-2.775557561563E-15,-12.,0.5));
#306 = DIRECTION('',(2.775557561563E-16,-2.22044604925E-16,-1.));
#307 = DIRECTION('',(-2.22044604925E-16,-1.,2.22044604925E-16));
#308 = ADVANCED_FACE('',(#309),#328,.T.);
#309 = FACE_BOUND('',#310,.T.);
#310 = EDGE_LOOP('',(#311,#312,#313,#322));
#311 = ORIENTED_EDGE('',*,*,#128,.T.);
#312 = ORIENTED_EDGE('',*,*,#265,.T.);
#313 = ORIENTED_EDGE('',*,*,#314,.F.);
#314 = EDGE_CURVE('',#315,#266,#317,.T.);
#315 = VERTEX_POINT('',#316);
#316 = CARTESIAN_POINT('',(12.,4.,-3.1));
#317 = CIRCLE('',#318,1.);
#318 = AXIS2_PLACEMENT_3D('',#319,#320,#321);
#319 = CARTESIAN_POINT('',(12.,4.,-2.1));
#320 = DIRECTION('',(1.,-2.22044604925E-16,2.775557561563E-16));
#321 = DIRECTION('',(-2.775557561563E-16,0.,1.));
#322 = ORIENTED_EDGE('',*,*,#323,.F.);
#323 = EDGE_CURVE('',#121,#315,#324,.T.);
#324 = LINE('',#325,#326);
#325 = CARTESIAN_POINT('',(1.576516694968E-15,4.,-3.1));
#326 = VECTOR('',#327,1.);
#327 = DIRECTION('',(1.,-2.22044604925E-16,2.775557561563E-16));
#328 = CYLINDRICAL_SURFACE('',#329,1.);
#329 = AXIS2_PLACEMENT_3D('',#330,#331,#332);
#330 = CARTESIAN_POINT('',(1.298960938811E-15,4.,-2.1));
#331 = DIRECTION('',(1.,-2.22044604925E-16,2.775557561563E-16));
#332 = DIRECTION('',(2.775557561563E-16,-2.22044604925E-16,-1.));
#333 = ADVANCED_FACE('',(#334),#352,.T.);
#334 = FACE_BOUND('',#335,.T.);
#335 = EDGE_LOOP('',(#336,#344,#350,#351));
#336 = ORIENTED_EDGE('',*,*,#337,.T.);
#337 = EDGE_CURVE('',#56,#338,#340,.T.);
#338 = VERTEX_POINT('',#339);
#339 = CARTESIAN_POINT('',(12.,-12.,1.5));
#340 = LINE('',#341,#342);
#341 = CARTESIAN_POINT('',(-2.997602166488E-15,-12.,1.5));
#342 = VECTOR('',#343,1.);
#343 = DIRECTION('',(1.,-2.22044604925E-16,2.775557561563E-16));
#344 = ORIENTED_EDGE('',*,*,#345,.T.);
#345 = EDGE_CURVE('',#338,#289,#346,.T.);
#346 = LINE('',#347,#348);
#347 = CARTESIAN_POINT('',(12.,-12.,1.5));
#348 = VECTOR('',#349,1.);
#349 = DIRECTION('',(2.22044604925E-16,-2.22044604925E-16,-1.));
#350 = ORIENTED_EDGE('',*,*,#288,.F.);
#351 = ORIENTED_EDGE('',*,*,#55,.F.);
#352 = PLANE('',#353);
#353 = AXIS2_PLACEMENT_3D('',#354,#355,#356);
#354 = CARTESIAN_POINT('',(-2.997602166488E-15,-12.,1.5));
#355 = DIRECTION('',(2.22044604925E-16,1.,-2.22044604925E-16));
#356 = DIRECTION('',(2.22044604925E-16,-2.22044604925E-16,-1.));
#357 = ADVANCED_FACE('',(#358),#376,.F.);
#358 = FACE_BOUND('',#359,.F.);
#359 = EDGE_LOOP('',(#360,#361,#369,#375));
#360 = ORIENTED_EDGE('',*,*,#120,.F.);
#361 = ORIENTED_EDGE('',*,*,#362,.T.);
#362 = EDGE_CURVE('',#112,#363,#365,.T.);
#363 = VERTEX_POINT('',#364);
#364 = CARTESIAN_POINT('',(12.,-9.,-3.1));
#365 = LINE('',#366,#367);
#366 = CARTESIAN_POINT('',(-1.310063169058E-15,-9.,-3.1));
#367 = VECTOR('',#368,1.);
#368 = DIRECTION('',(1.,-2.22044604925E-16,2.775557561563E-16));
#369 = ORIENTED_EDGE('',*,*,#370,.T.);
#370 = EDGE_CURVE('',#363,#315,#371,.T.);
#371 = LINE('',#372,#373);
#372 = CARTESIAN_POINT('',(12.,-10.,-3.1));
#373 = VECTOR('',#374,1.);
#374 = DIRECTION('',(2.22044604925E-16,1.,-2.22044604925E-16));
#375 = ORIENTED_EDGE('',*,*,#323,.F.);
#376 = PLANE('',#377);
#377 = AXIS2_PLACEMENT_3D('',#378,#379,#380);
#378 = CARTESIAN_POINT('',(-1.532107773983E-15,-10.,-3.1));
#379 = DIRECTION('',(-2.775557561563E-16,2.22044604925E-16,1.));
#380 = DIRECTION('',(2.22044604925E-16,1.,-2.22044604925E-16));
#381 = ADVANCED_FACE('',(#382),#400,.F.);
#382 = FACE_BOUND('',#383,.F.);
#383 = EDGE_LOOP('',(#384,#385,#393,#399));
#384 = ORIENTED_EDGE('',*,*,#337,.T.);
#385 = ORIENTED_EDGE('',*,*,#386,.T.);
#386 = EDGE_CURVE('',#338,#387,#389,.T.);
#387 = VERTEX_POINT('',#388);
#388 = CARTESIAN_POINT('',(12.,3.5,1.5));
#389 = LINE('',#390,#391);
#390 = CARTESIAN_POINT('',(12.,-12.,1.5));
#391 = VECTOR('',#392,1.);
#392 = DIRECTION('',(2.22044604925E-16,1.,-2.22044604925E-16));
#393 = ORIENTED_EDGE('',*,*,#394,.F.);
#394 = EDGE_CURVE('',#64,#387,#395,.T.);
#395 = LINE('',#396,#397);
#396 = CARTESIAN_POINT('',(4.440892098501E-16,3.5,1.5));
#397 = VECTOR('',#398,1.);
#398 = DIRECTION('',(1.,-2.22044604925E-16,2.775557561563E-16));
#399 = ORIENTED_EDGE('',*,*,#63,.F.);
#400 = PLANE('',#401);
#401 = AXIS2_PLACEMENT_3D('',#402,#403,#404);
#402 = CARTESIAN_POINT('',(-2.997602166488E-15,-12.,1.5));
#403 = DIRECTION('',(-2.775557561563E-16,2.22044604925E-16,1.));
#404 = DIRECTION('',(2.22044604925E-16,1.,-2.22044604925E-16));
#405 = ADVANCED_FACE('',(#406),#425,.T.);
#406 = FACE_BOUND('',#407,.T.);
#407 = EDGE_LOOP('',(#408,#409,#410,#419));
#408 = ORIENTED_EDGE('',*,*,#111,.T.);
#409 = ORIENTED_EDGE('',*,*,#362,.T.);
#410 = ORIENTED_EDGE('',*,*,#411,.F.);
#411 = EDGE_CURVE('',#412,#363,#414,.T.);
#412 = VERTEX_POINT('',#413);
#413 = CARTESIAN_POINT('',(12.,-10.,-2.1));
#414 = CIRCLE('',#415,1.);
#415 = AXIS2_PLACEMENT_3D('',#416,#417,#418);
#416 = CARTESIAN_POINT('',(12.,-9.,-2.1));
#417 = DIRECTION('',(1.,-2.22044604925E-16,2.775557561563E-16));
#418 = DIRECTION('',(-2.775557561563E-16,0.,1.));
#419 = ORIENTED_EDGE('',*,*,#420,.F.);
#420 = EDGE_CURVE('',#104,#412,#421,.T.);
#421 = LINE('',#422,#423);
#422 = CARTESIAN_POINT('',(-1.809663530139E-15,-10.,-2.1));
#423 = VECTOR('',#424,1.);
#424 = DIRECTION('',(1.,-2.22044604925E-16,2.775557561563E-16));
#425 = CYLINDRICAL_SURFACE('',#426,1.);
#426 = AXIS2_PLACEMENT_3D('',#427,#428,#429);
#427 = CARTESIAN_POINT('',(-1.587618925214E-15,-9.,-2.1));
#428 = DIRECTION('',(1.,-2.22044604925E-16,2.775557561563E-16));
#429 = DIRECTION('',(-2.22044604925E-16,-1.,2.22044604925E-16));
#430 = ADVANCED_FACE('',(#431),#449,.F.);
#431 = FACE_BOUND('',#432,.F.);
#432 = EDGE_LOOP('',(#433,#434,#442,#448));
#433 = ORIENTED_EDGE('',*,*,#394,.T.);
#434 = ORIENTED_EDGE('',*,*,#435,.T.);
#435 = EDGE_CURVE('',#387,#436,#438,.T.);
#436 = VERTEX_POINT('',#437);
#437 = CARTESIAN_POINT('',(12.,3.5,2.553512956638E-15));
#438 = LINE('',#439,#440);
#439 = CARTESIAN_POINT('',(12.,3.5,1.5));
#440 = VECTOR('',#441,1.);
#441 = DIRECTION('',(2.22044604925E-16,-2.22044604925E-16,-1.));
#442 = ORIENTED_EDGE('',*,*,#443,.F.);
#443 = EDGE_CURVE('',#72,#436,#444,.T.);
#444 = LINE('',#445,#446);
#445 = CARTESIAN_POINT('',(7.771561172376E-16,3.5,-7.771561172376E-16));
#446 = VECTOR('',#447,1.);
#447 = DIRECTION('',(1.,-2.22044604925E-16,2.775557561563E-16));
#448 = ORIENTED_EDGE('',*,*,#71,.F.);
#449 = PLANE('',#450);
#450 = AXIS2_PLACEMENT_3D('',#451,#452,#453);
#451 = CARTESIAN_POINT('',(4.440892098501E-16,3.5,1.5));
#452 = DIRECTION('',(2.22044604925E-16,1.,-2.22044604925E-16));
#453 = DIRECTION('',(2.22044604925E-16,-2.22044604925E-16,-1.));
#454 = ADVANCED_FACE('',(#455),#473,.F.);
#455 = FACE_BOUND('',#456,.F.);
#456 = EDGE_LOOP('',(#457,#458,#466,#472));
#457 = ORIENTED_EDGE('',*,*,#103,.F.);
#458 = ORIENTED_EDGE('',*,*,#459,.T.);
#459 = EDGE_CURVE('',#96,#460,#462,.T.);
#460 = VERTEX_POINT('',#461);
#461 = CARTESIAN_POINT('',(12.,-10.,-1.6));
#462 = LINE('',#463,#464);
#463 = CARTESIAN_POINT('',(-1.86517468137E-15,-10.,-1.6));
#464 = VECTOR('',#465,1.);
#465 = DIRECTION('',(1.,-2.22044604925E-16,2.775557561563E-16));
#466 = ORIENTED_EDGE('',*,*,#467,.T.);
#467 = EDGE_CURVE('',#460,#412,#468,.T.);
#468 = LINE('',#469,#470);
#469 = CARTESIAN_POINT('',(12.,-10.,-1.6));
#470 = VECTOR('',#471,1.);
#471 = DIRECTION('',(2.22044604925E-16,-2.22044604925E-16,-1.));
#472 = ORIENTED_EDGE('',*,*,#420,.F.);
#473 = PLANE('',#474);
#474 = AXIS2_PLACEMENT_3D('',#475,#476,#477);
#475 = CARTESIAN_POINT('',(-1.86517468137E-15,-10.,-1.6));
#476 = DIRECTION('',(2.22044604925E-16,1.,-2.22044604925E-16));
#477 = DIRECTION('',(2.22044604925E-16,-2.22044604925E-16,-1.));
#478 = ADVANCED_FACE('',(#479),#497,.F.);
#479 = FACE_BOUND('',#480,.F.);
#480 = EDGE_LOOP('',(#481,#482,#490,#496));
#481 = ORIENTED_EDGE('',*,*,#443,.T.);
#482 = ORIENTED_EDGE('',*,*,#483,.T.);
#483 = EDGE_CURVE('',#436,#484,#486,.T.);
#484 = VERTEX_POINT('',#485);
#485 = CARTESIAN_POINT('',(12.,-2.6645352591E-15,3.330669073875E-15));
#486 = LINE('',#487,#488);
#487 = CARTESIAN_POINT('',(12.,3.5,2.553512956638E-15));
#488 = VECTOR('',#489,1.);
#489 = DIRECTION('',(-2.22044604925E-16,-1.,2.22044604925E-16));
#490 = ORIENTED_EDGE('',*,*,#491,.F.);
#491 = EDGE_CURVE('',#80,#484,#492,.T.);
#492 = LINE('',#493,#494);
#493 = CARTESIAN_POINT('',(0.,0.,0.));
#494 = VECTOR('',#495,1.);
#495 = DIRECTION('',(1.,-2.22044604925E-16,2.775557561563E-16));
#496 = ORIENTED_EDGE('',*,*,#79,.F.);
#497 = PLANE('',#498);
#498 = AXIS2_PLACEMENT_3D('',#499,#500,#501);
#499 = CARTESIAN_POINT('',(7.771561172376E-16,3.5,-7.771561172376E-16));
#500 = DIRECTION('',(2.775557561563E-16,-2.22044604925E-16,-1.));
#501 = DIRECTION('',(-2.22044604925E-16,-1.,2.22044604925E-16));
#502 = ADVANCED_FACE('',(#503),#521,.F.);
#503 = FACE_BOUND('',#504,.F.);
#504 = EDGE_LOOP('',(#505,#513,#519,#520));
#505 = ORIENTED_EDGE('',*,*,#506,.T.);
#506 = EDGE_CURVE('',#88,#507,#509,.T.);
#507 = VERTEX_POINT('',#508);
#508 = CARTESIAN_POINT('',(12.,-3.01980662698E-15,-1.6));
#509 = LINE('',#510,#511);
#510 = CARTESIAN_POINT('',(3.552713678801E-16,-3.552713678801E-16,-1.6)
  );
#511 = VECTOR('',#512,1.);
#512 = DIRECTION('',(1.,-2.22044604925E-16,2.775557561563E-16));
#513 = ORIENTED_EDGE('',*,*,#514,.T.);
#514 = EDGE_CURVE('',#507,#460,#515,.T.);
#515 = LINE('',#516,#517);
#516 = CARTESIAN_POINT('',(12.,-3.01980662698E-15,-1.6));
#517 = VECTOR('',#518,1.);
#518 = DIRECTION('',(-2.22044604925E-16,-1.,2.22044604925E-16));
#519 = ORIENTED_EDGE('',*,*,#459,.F.);
#520 = ORIENTED_EDGE('',*,*,#95,.F.);
#521 = PLANE('',#522);
#522 = AXIS2_PLACEMENT_3D('',#523,#524,#525);
#523 = CARTESIAN_POINT('',(3.552713678801E-16,-3.552713678801E-16,-1.6)
  );
#524 = DIRECTION('',(2.775557561563E-16,-2.22044604925E-16,-1.));
#525 = DIRECTION('',(-2.22044604925E-16,-1.,2.22044604925E-16));
#526 = ADVANCED_FACE('',(#527),#538,.F.);
#527 = FACE_BOUND('',#528,.F.);
#528 = EDGE_LOOP('',(#529,#530,#536,#537));
#529 = ORIENTED_EDGE('',*,*,#491,.T.);
#530 = ORIENTED_EDGE('',*,*,#531,.T.);
#531 = EDGE_CURVE('',#484,#507,#532,.T.);
#532 = LINE('',#533,#534);
#533 = CARTESIAN_POINT('',(12.,-2.6645352591E-15,3.330669073875E-15));
#534 = VECTOR('',#535,1.);
#535 = DIRECTION('',(2.22044604925E-16,-2.22044604925E-16,-1.));
#536 = ORIENTED_EDGE('',*,*,#506,.F.);
#537 = ORIENTED_EDGE('',*,*,#87,.F.);
#538 = PLANE('',#539);
#539 = AXIS2_PLACEMENT_3D('',#540,#541,#542);
#540 = CARTESIAN_POINT('',(0.,0.,0.));
#541 = DIRECTION('',(2.22044604925E-16,1.,-2.22044604925E-16));
#542 = DIRECTION('',(2.22044604925E-16,-2.22044604925E-16,-1.));
#543 = ADVANCED_FACE('',(#544),#562,.T.);
#544 = FACE_BOUND('',#545,.T.);
#545 = EDGE_LOOP('',(#546,#547,#548,#549,#550,#551,#552,#553,#554,#555,
    #556,#557,#558,#559,#560,#561));
#546 = ORIENTED_EDGE('',*,*,#169,.F.);
#547 = ORIENTED_EDGE('',*,*,#193,.T.);
#548 = ORIENTED_EDGE('',*,*,#249,.F.);
#549 = ORIENTED_EDGE('',*,*,#296,.F.);
#550 = ORIENTED_EDGE('',*,*,#345,.F.);
#551 = ORIENTED_EDGE('',*,*,#386,.T.);
#552 = ORIENTED_EDGE('',*,*,#435,.T.);
#553 = ORIENTED_EDGE('',*,*,#483,.T.);
#554 = ORIENTED_EDGE('',*,*,#531,.T.);
#555 = ORIENTED_EDGE('',*,*,#514,.T.);
#556 = ORIENTED_EDGE('',*,*,#467,.T.);
#557 = ORIENTED_EDGE('',*,*,#411,.T.);
#558 = ORIENTED_EDGE('',*,*,#370,.T.);
#559 = ORIENTED_EDGE('',*,*,#314,.T.);
#560 = ORIENTED_EDGE('',*,*,#273,.T.);
#561 = ORIENTED_EDGE('',*,*,#217,.T.);
#562 = PLANE('',#563);
#563 = AXIS2_PLACEMENT_3D('',#564,#565,#566);
#564 = CARTESIAN_POINT('',(12.,-3.444301816353,4.086646542781E-02));
#565 = DIRECTION('',(1.,0.,2.22044604925E-16));
#566 = DIRECTION('',(-2.22044604925E-16,0.,1.));
#567 = ( GEOMETRIC_REPRESENTATION_CONTEXT(3) 
GLOBAL_UNCERTAINTY_ASSIGNED_CONTEXT((#571)) GLOBAL_UNIT_ASSIGNED_CONTEXT
((#568,#569,#570)) REPRESENTATION_CONTEXT('Context #1',
  '3D Context with UNIT and UNCERTAINTY') );
#568 = ( LENGTH_UNIT() NAMED_UNIT(*) SI_UNIT(.MILLI.,.METRE.) );
#569 = ( NAMED_UNIT(*) PLANE_ANGLE_UNIT() SI_UNIT($,.RADIAN.) );
#570 = ( NAMED_UNIT(*) SI_UNIT($,.STERADIAN.) SOLID_ANGLE_UNIT() );
#571 = UNCERTAINTY_MEASURE_WITH_UNIT(LENGTH_MEASURE(1.E-07),#568,
  'distance_accuracy_value','confusion accuracy');
#572 = PRODUCT_RELATED_PRODUCT_CATEGORY('part',$,(#7));
#573 = MECHANICAL_DESIGN_GEOMETRIC_PRESENTATION_REPRESENTATION('',(#574)
  ,#567);
#574 = STYLED_ITEM('color',(#575),#15);
#575 = PRESENTATION_STYLE_ASSIGNMENT((#576,#582));
#576 = SURFACE_STYLE_USAGE(.BOTH.,#577);
#577 = SURFACE_SIDE_STYLE('',(#578));
#578 = SURFACE_STYLE_FILL_AREA(#579);
#579 = FILL_AREA_STYLE('',(#580));
#580 = FILL_AREA_STYLE_COLOUR('',#581);
#581 = COLOUR_RGB('',0.800000010877,0.800000010877,0.800000010877);
#582 = CURVE_STYLE('',#583,POSITIVE_LENGTH_MEASURE(0.1),#584);
#583 = DRAUGHTING_PRE_DEFINED_CURVE_FONT('continuous');
#584 = COLOUR_RGB('',9.803921802644E-02,9.803921802644E-02,
  9.803921802644E-02);
ENDSEC;
END-ISO-10303-21;
