  0
SECTION
  2
HEADER
  9
$MEASUREMENT
  70
  1
  9
$INSUNITS
  70
  4
  0
ENDSEC
  0
SECTION
  2
TABLES
  0
TABLE
  2
LTYPE
 70
     1
  0
LTYPE
  2
CONTINUOUS
 70
    64
  3
Ausgezogene Linie
 72
    65
 73
     0
 40
0.0
  0
ENDTAB
  0
TABLE
  2
LAYER
 70
     3
  0
LAYER
  2
Kontur
 70
    64
 62
     7
  6
CONTINUOUS
  0
LAYER
  2
Gravur
 70
    64
 62
     7
  6
CONTINUOUS
  0
LAYER
  2
Bezugspunkte
 70
    64
 62
     1
  6
CONTINUOUS
  0
ENDTAB
  0
TABLE
  2
STYLE
 70
     1
  0
STYLE
  2
TXT
 70
    64
 40
0.0
 41
1.0
 50
0.0
 71
     0
 42
3.500000
  3
TXT
  0
ENDTAB
  0
ENDSEC
  0
SECTION
  2
BLOCKS
  0
ENDSEC
  0
SECTION
  2
ENTITIES
  0
LINE
  8
Kontur
 62
   7
 39
0.100
  6
CONTINUOUS
 10
250.00000
 20
77.00000
 30
 0
 11
0.00000
 21
77.00000
  0
LINE
  8
Kontur
 62
   7
 39
0.100
  6
CONTINUOUS
 10
0.00000
 20
77.00000
 30
 0
 11
0.00000
 21
77.00000
  0
LINE
  8
Kontur
 62
   7
 39
0.100
  6
CONTINUOUS
 10
0.00000
 20
77.00000
 30
 0
 11
0.00000
 21
0.00000
  0
LINE
  8
Kontur
 62
   7
 39
0.100
  6
CONTINUOUS
 10
0.00000
 20
0.00000
 30
 0
 11
0.00000
 21
0.00000
  0
LINE
  8
Kontur
 62
   7
 39
0.100
  6
CONTINUOUS
 10
0.00000
 20
0.00000
 30
 0
 11
250.00000
 21
0.00000
  0
LINE
  8
Kontur
 62
   7
 39
0.100
  6
CONTINUOUS
 10
250.00000
 20
0.00000
 30
 0
 11
250.00000
 21
0.00000
  0
LINE
  8
Kontur
 62
   7
 39
0.100
  6
CONTINUOUS
 10
250.00000
 20
0.00000
 30
 0
 11
250.00000
 21
77.00000
  0
LINE
  8
Kontur
 62
   7
 39
0.100
  6
CONTINUOUS
 10
250.00000
 20
77.00000
 30
 0
 11
250.00000
 21
77.00000
  0
CIRCLE
  8
Kontur
 62
   7
 39
0.100
  6
CONTINUOUS
 10
105.23700
 20
30.00000
 30
 0
 40
12.25000
  0
CIRCLE
  8
Kontur
 62
   7
 39
0.100
  6
CONTINUOUS
 10
113.58700
 20
16.90000
 30
 0
 40
1.60000
  0
CIRCLE
  8
Kontur
 62
   7
 39
0.100
  6
CONTINUOUS
 10
96.88700
 20
43.10000
 30
 0
 40
1.60000
  0
CIRCLE
  8
Kontur
 62
   7
 39
0.100
  6
CONTINUOUS
 10
78.73700
 20
30.00000
 30
 0
 40
12.25000
  0
CIRCLE
  8
Kontur
 62
   7
 39
0.100
  6
CONTINUOUS
 10
87.08700
 20
16.90000
 30
 0
 40
1.60000
  0
CIRCLE
  8
Kontur
 62
   7
 39
0.100
  6
CONTINUOUS
 10
70.38700
 20
43.10000
 30
 0
 40
1.60000
  0
CIRCLE
  8
Kontur
 62
   7
 39
0.100
  6
CONTINUOUS
 10
52.23700
 20
30.00000
 30
 0
 40
12.25000
  0
CIRCLE
  8
Kontur
 62
   7
 39
0.100
  6
CONTINUOUS
 10
60.58700
 20
16.90000
 30
 0
 40
1.60000
  0
CIRCLE
  8
Kontur
 62
   7
 39
0.100
  6
CONTINUOUS
 10
43.88700
 20
43.10000
 30
 0
 40
1.60000
  0
CIRCLE
  8
Kontur
 62
   7
 39
0.100
  6
CONTINUOUS
 10
25.73700
 20
30.00000
 30
 0
 40
12.25000
  0
CIRCLE
  8
Kontur
 62
   7
 39
0.100
  6
CONTINUOUS
 10
34.08700
 20
16.90000
 30
 0
 40
1.60000
  0
CIRCLE
  8
Kontur
 62
   7
 39
0.100
  6
CONTINUOUS
 10
17.38700
 20
43.10000
 30
 0
 40
1.60000
  0
CIRCLE
  8
Kontur
 62
   7
 39
0.100
  6
CONTINUOUS
 10
212.46700
 20
30.00000
 30
 0
 40
10.00000
  0
CIRCLE
  8
Kontur
 62
   7
 39
0.100
  6
CONTINUOUS
 10
212.46700
 20
16.50000
 30
 0
 40
1.60000
  0
CIRCLE
  8
Kontur
 62
   7
 39
0.100
  6
CONTINUOUS
 10
212.46700
 20
43.50000
 30
 0
 40
1.60000
  0
CIRCLE
  8
Kontur
 62
   7
 39
0.100
  6
CONTINUOUS
 10
190.46700
 20
30.00000
 30
 0
 40
10.00000
  0
CIRCLE
  8
Kontur
 62
   7
 39
0.100
  6
CONTINUOUS
 10
190.46700
 20
16.50000
 30
 0
 40
1.60000
  0
CIRCLE
  8
Kontur
 62
   7
 39
0.100
  6
CONTINUOUS
 10
190.46700
 20
43.50000
 30
 0
 40
1.60000
  0
CIRCLE
  8
Kontur
 62
   7
 39
0.100
  6
CONTINUOUS
 10
168.46700
 20
30.00000
 30
 0
 40
10.00000
  0
CIRCLE
  8
Kontur
 62
   7
 39
0.100
  6
CONTINUOUS
 10
168.46700
 20
16.50000
 30
 0
 40
1.60000
  0
CIRCLE
  8
Kontur
 62
   7
 39
0.100
  6
CONTINUOUS
 10
168.46700
 20
43.50000
 30
 0
 40
1.60000
  0
CIRCLE
  8
Kontur
 62
   7
 39
0.100
  6
CONTINUOUS
 10
146.46700
 20
30.00000
 30
 0
 40
10.00000
  0
CIRCLE
  8
Kontur
 62
   7
 39
0.100
  6
CONTINUOUS
 10
146.46700
 20
16.50000
 30
 0
 40
1.60000
  0
CIRCLE
  8
Kontur
 62
   7
 39
0.100
  6
CONTINUOUS
 10
146.46700
 20
43.50000
 30
 0
 40
1.60000
  0
LINE
  8
Bezugspunkte
 62
   1
 39
0.100
  6
CONTINUOUS
 10
-1.00000
 20
0.00000
 30
 0
 11
1.00000
 21
0.00000
  0
LINE
  8
Bezugspunkte
 62
   1
 39
0.100
  6
CONTINUOUS
 10
0.00000
 20
-1.00000
 30
 0
 11
0.00000
 21
1.00000
  0
LINE
  8
Bezugspunkte
 62
   1
 39
0.100
  6
CONTINUOUS
 10
104.23700
 20
30.00000
 30
 0
 11
106.23700
 21
30.00000
  0
LINE
  8
Bezugspunkte
 62
   1
 39
0.100
  6
CONTINUOUS
 10
105.23700
 20
29.00000
 30
 0
 11
105.23700
 21
31.00000
  0
LINE
  8
Bezugspunkte
 62
   1
 39
0.100
  6
CONTINUOUS
 10
112.58700
 20
16.90000
 30
 0
 11
114.58700
 21
16.90000
  0
LINE
  8
Bezugspunkte
 62
   1
 39
0.100
  6
CONTINUOUS
 10
113.58700
 20
15.90000
 30
 0
 11
113.58700
 21
17.90000
  0
LINE
  8
Bezugspunkte
 62
   1
 39
0.100
  6
CONTINUOUS
 10
95.88700
 20
43.10000
 30
 0
 11
97.88700
 21
43.10000
  0
LINE
  8
Bezugspunkte
 62
   1
 39
0.100
  6
CONTINUOUS
 10
96.88700
 20
42.10000
 30
 0
 11
96.88700
 21
44.10000
  0
LINE
  8
Bezugspunkte
 62
   1
 39
0.100
  6
CONTINUOUS
 10
104.23700
 20
30.00000
 30
 0
 11
106.23700
 21
30.00000
  0
LINE
  8
Bezugspunkte
 62
   1
 39
0.100
  6
CONTINUOUS
 10
105.23700
 20
29.00000
 30
 0
 11
105.23700
 21
31.00000
  0
LINE
  8
Bezugspunkte
 62
   1
 39
0.100
  6
CONTINUOUS
 10
77.73700
 20
30.00000
 30
 0
 11
79.73700
 21
30.00000
  0
LINE
  8
Bezugspunkte
 62
   1
 39
0.100
  6
CONTINUOUS
 10
78.73700
 20
29.00000
 30
 0
 11
78.73700
 21
31.00000
  0
LINE
  8
Bezugspunkte
 62
   1
 39
0.100
  6
CONTINUOUS
 10
86.08700
 20
16.90000
 30
 0
 11
88.08700
 21
16.90000
  0
LINE
  8
Bezugspunkte
 62
   1
 39
0.100
  6
CONTINUOUS
 10
87.08700
 20
15.90000
 30
 0
 11
87.08700
 21
17.90000
  0
LINE
  8
Bezugspunkte
 62
   1
 39
0.100
  6
CONTINUOUS
 10
69.38700
 20
43.10000
 30
 0
 11
71.38700
 21
43.10000
  0
LINE
  8
Bezugspunkte
 62
   1
 39
0.100
  6
CONTINUOUS
 10
70.38700
 20
42.10000
 30
 0
 11
70.38700
 21
44.10000
  0
LINE
  8
Bezugspunkte
 62
   1
 39
0.100
  6
CONTINUOUS
 10
77.73700
 20
30.00000
 30
 0
 11
79.73700
 21
30.00000
  0
LINE
  8
Bezugspunkte
 62
   1
 39
0.100
  6
CONTINUOUS
 10
78.73700
 20
29.00000
 30
 0
 11
78.73700
 21
31.00000
  0
LINE
  8
Bezugspunkte
 62
   1
 39
0.100
  6
CONTINUOUS
 10
51.23700
 20
30.00000
 30
 0
 11
53.23700
 21
30.00000
  0
LINE
  8
Bezugspunkte
 62
   1
 39
0.100
  6
CONTINUOUS
 10
52.23700
 20
29.00000
 30
 0
 11
52.23700
 21
31.00000
  0
LINE
  8
Bezugspunkte
 62
   1
 39
0.100
  6
CONTINUOUS
 10
59.58700
 20
16.90000
 30
 0
 11
61.58700
 21
16.90000
  0
LINE
  8
Bezugspunkte
 62
   1
 39
0.100
  6
CONTINUOUS
 10
60.58700
 20
15.90000
 30
 0
 11
60.58700
 21
17.90000
  0
LINE
  8
Bezugspunkte
 62
   1
 39
0.100
  6
CONTINUOUS
 10
42.88700
 20
43.10000
 30
 0
 11
44.88700
 21
43.10000
  0
LINE
  8
Bezugspunkte
 62
   1
 39
0.100
  6
CONTINUOUS
 10
43.88700
 20
42.10000
 30
 0
 11
43.88700
 21
44.10000
  0
LINE
  8
Bezugspunkte
 62
   1
 39
0.100
  6
CONTINUOUS
 10
51.23700
 20
30.00000
 30
 0
 11
53.23700
 21
30.00000
  0
LINE
  8
Bezugspunkte
 62
   1
 39
0.100
  6
CONTINUOUS
 10
52.23700
 20
29.00000
 30
 0
 11
52.23700
 21
31.00000
  0
LINE
  8
Bezugspunkte
 62
   1
 39
0.100
  6
CONTINUOUS
 10
24.73700
 20
30.00000
 30
 0
 11
26.73700
 21
30.00000
  0
LINE
  8
Bezugspunkte
 62
   1
 39
0.100
  6
CONTINUOUS
 10
25.73700
 20
29.00000
 30
 0
 11
25.73700
 21
31.00000
  0
LINE
  8
Bezugspunkte
 62
   1
 39
0.100
  6
CONTINUOUS
 10
33.08700
 20
16.90000
 30
 0
 11
35.08700
 21
16.90000
  0
LINE
  8
Bezugspunkte
 62
   1
 39
0.100
  6
CONTINUOUS
 10
34.08700
 20
15.90000
 30
 0
 11
34.08700
 21
17.90000
  0
LINE
  8
Bezugspunkte
 62
   1
 39
0.100
  6
CONTINUOUS
 10
16.38700
 20
43.10000
 30
 0
 11
18.38700
 21
43.10000
  0
LINE
  8
Bezugspunkte
 62
   1
 39
0.100
  6
CONTINUOUS
 10
17.38700
 20
42.10000
 30
 0
 11
17.38700
 21
44.10000
  0
LINE
  8
Bezugspunkte
 62
   1
 39
0.100
  6
CONTINUOUS
 10
24.73700
 20
30.00000
 30
 0
 11
26.73700
 21
30.00000
  0
LINE
  8
Bezugspunkte
 62
   1
 39
0.100
  6
CONTINUOUS
 10
25.73700
 20
29.00000
 30
 0
 11
25.73700
 21
31.00000
  0
LINE
  8
Bezugspunkte
 62
   1
 39
0.100
  6
CONTINUOUS
 10
211.46700
 20
30.00000
 30
 0
 11
213.46700
 21
30.00000
  0
LINE
  8
Bezugspunkte
 62
   1
 39
0.100
  6
CONTINUOUS
 10
212.46700
 20
29.00000
 30
 0
 11
212.46700
 21
31.00000
  0
LINE
  8
Bezugspunkte
 62
   1
 39
0.100
  6
CONTINUOUS
 10
211.46700
 20
16.50000
 30
 0
 11
213.46700
 21
16.50000
  0
LINE
  8
Bezugspunkte
 62
   1
 39
0.100
  6
CONTINUOUS
 10
212.46700
 20
15.50000
 30
 0
 11
212.46700
 21
17.50000
  0
LINE
  8
Bezugspunkte
 62
   1
 39
0.100
  6
CONTINUOUS
 10
211.46700
 20
43.50000
 30
 0
 11
213.46700
 21
43.50000
  0
LINE
  8
Bezugspunkte
 62
   1
 39
0.100
  6
CONTINUOUS
 10
212.46700
 20
42.50000
 30
 0
 11
212.46700
 21
44.50000
  0
LINE
  8
Bezugspunkte
 62
   1
 39
0.100
  6
CONTINUOUS
 10
211.46500
 20
30.00000
 30
 0
 11
213.46500
 21
30.00000
  0
LINE
  8
Bezugspunkte
 62
   1
 39
0.100
  6
CONTINUOUS
 10
212.46500
 20
29.00000
 30
 0
 11
212.46500
 21
31.00000
  0
LINE
  8
Bezugspunkte
 62
   1
 39
0.100
  6
CONTINUOUS
 10
189.46700
 20
30.00000
 30
 0
 11
191.46700
 21
30.00000
  0
LINE
  8
Bezugspunkte
 62
   1
 39
0.100
  6
CONTINUOUS
 10
190.46700
 20
29.00000
 30
 0
 11
190.46700
 21
31.00000
  0
LINE
  8
Bezugspunkte
 62
   1
 39
0.100
  6
CONTINUOUS
 10
189.46700
 20
16.50000
 30
 0
 11
191.46700
 21
16.50000
  0
LINE
  8
Bezugspunkte
 62
   1
 39
0.100
  6
CONTINUOUS
 10
190.46700
 20
15.50000
 30
 0
 11
190.46700
 21
17.50000
  0
LINE
  8
Bezugspunkte
 62
   1
 39
0.100
  6
CONTINUOUS
 10
189.46700
 20
43.50000
 30
 0
 11
191.46700
 21
43.50000
  0
LINE
  8
Bezugspunkte
 62
   1
 39
0.100
  6
CONTINUOUS
 10
190.46700
 20
42.50000
 30
 0
 11
190.46700
 21
44.50000
  0
LINE
  8
Bezugspunkte
 62
   1
 39
0.100
  6
CONTINUOUS
 10
189.46500
 20
30.00000
 30
 0
 11
191.46500
 21
30.00000
  0
LINE
  8
Bezugspunkte
 62
   1
 39
0.100
  6
CONTINUOUS
 10
190.46500
 20
29.00000
 30
 0
 11
190.46500
 21
31.00000
  0
LINE
  8
Bezugspunkte
 62
   1
 39
0.100
  6
CONTINUOUS
 10
167.46700
 20
30.00000
 30
 0
 11
169.46700
 21
30.00000
  0
LINE
  8
Bezugspunkte
 62
   1
 39
0.100
  6
CONTINUOUS
 10
168.46700
 20
29.00000
 30
 0
 11
168.46700
 21
31.00000
  0
LINE
  8
Bezugspunkte
 62
   1
 39
0.100
  6
CONTINUOUS
 10
167.46700
 20
16.50000
 30
 0
 11
169.46700
 21
16.50000
  0
LINE
  8
Bezugspunkte
 62
   1
 39
0.100
  6
CONTINUOUS
 10
168.46700
 20
15.50000
 30
 0
 11
168.46700
 21
17.50000
  0
LINE
  8
Bezugspunkte
 62
   1
 39
0.100
  6
CONTINUOUS
 10
167.46700
 20
43.50000
 30
 0
 11
169.46700
 21
43.50000
  0
LINE
  8
Bezugspunkte
 62
   1
 39
0.100
  6
CONTINUOUS
 10
168.46700
 20
42.50000
 30
 0
 11
168.46700
 21
44.50000
  0
LINE
  8
Bezugspunkte
 62
   1
 39
0.100
  6
CONTINUOUS
 10
167.46500
 20
30.00000
 30
 0
 11
169.46500
 21
30.00000
  0
LINE
  8
Bezugspunkte
 62
   1
 39
0.100
  6
CONTINUOUS
 10
168.46500
 20
29.00000
 30
 0
 11
168.46500
 21
31.00000
  0
LINE
  8
Bezugspunkte
 62
   1
 39
0.100
  6
CONTINUOUS
 10
145.46700
 20
30.00000
 30
 0
 11
147.46700
 21
30.00000
  0
LINE
  8
Bezugspunkte
 62
   1
 39
0.100
  6
CONTINUOUS
 10
146.46700
 20
29.00000
 30
 0
 11
146.46700
 21
31.00000
  0
LINE
  8
Bezugspunkte
 62
   1
 39
0.100
  6
CONTINUOUS
 10
145.46700
 20
16.50000
 30
 0
 11
147.46700
 21
16.50000
  0
LINE
  8
Bezugspunkte
 62
   1
 39
0.100
  6
CONTINUOUS
 10
146.46700
 20
15.50000
 30
 0
 11
146.46700
 21
17.50000
  0
LINE
  8
Bezugspunkte
 62
   1
 39
0.100
  6
CONTINUOUS
 10
145.46700
 20
43.50000
 30
 0
 11
147.46700
 21
43.50000
  0
LINE
  8
Bezugspunkte
 62
   1
 39
0.100
  6
CONTINUOUS
 10
146.46700
 20
42.50000
 30
 0
 11
146.46700
 21
44.50000
  0
LINE
  8
Bezugspunkte
 62
   1
 39
0.100
  6
CONTINUOUS
 10
145.46500
 20
30.00000
 30
 0
 11
147.46500
 21
30.00000
  0
LINE
  8
Bezugspunkte
 62
   1
 39
0.100
  6
CONTINUOUS
 10
146.46500
 20
29.00000
 30
 0
 11
146.46500
 21
31.00000
  0
ENDSEC
  0
EOF
